Jump to content
Sign in to follow this  
Piratpjokken

Ff- February stars tabs. Helt på jordet! Lets fix

Recommended Posts

Vel.. Nå har jeg blitt håpløst forelsket i sangen og må lære meg den på gitar. Men alle tabbene er jo helt på jordet!

 

 

 

Intro/Verse

e|--5--5---5-----5----3-3---7-7-7---3-3--7-7----5---5------|

B|--8----8-7---7---7--5--5--8----8--5--5-8--8---7-7---7----|

G|--7------7-7------7-4-----7-----7-4----7---7--7-------7--|

D|--0------0----------0-----0-------0----0------0----------| x2

A|---------------------------------------------------------|

D|---------------------------------------------------------|

hangin on...

 

Denne er da feil! Det er også powertab! Men jeg har komt frem til at powertab har 1 rett ting; I stedet for 3540, se har den 5760.

 

Den tabbingen jeg skriver her er altså det jeg har komt frem til:

 

e|--5--5---5---5----5--?(--5?)-7--7-7

B|--8----8-7--7-7---7--??(-7??)-8-8----8

G|--7------7-7---7--6--??(6?)-7--------7

D|--0------0---------0--??(0?)-0---------

A|--------------------------------------------

D|---------------------------------------------

 

 

Også stemmer ingen ting lenger :(

Rett gjerne litt på dette og skriv inn fortsettelsen!

 

 

 

 

 

 

 

 

 

 

Jeg brukte:

http://www.ultimate-guitar.com/tabs/f/foo_...rs_ver2_tab.htm

powertabben.

Share this post


Link to post

Join the conversation

You can post now and register later. If you have an account, sign in now to post with your account.

Guest
Reply to this topic...

×   Pasted as rich text.   Paste as plain text instead

  Only 75 emoji are allowed.

×   Your link has been automatically embedded.   Display as a link instead

×   Your previous content has been restored.   Clear editor

×   You cannot paste images directly. Upload or insert images from URL.

Loading...
Sign in to follow this  

×
×
  • Create New...